Главная Скачать mp3Скачать mp3 Биография Альбомы Видеография Галерея Аккорды Информация Обратная связь
Виктор ЦойПосвящается легенде русского рока

КИНО - Сказка

1-|----------------------3-----3---2---0---
2-|-------0------0-3---3-3---3---3---0-----
3-|---0-2---0----0-0---0-------------------
4-|-2--------------------------------------
5-|----------------------------------------
6-|----------------------------------------

Em
Снова новый начинается день,
G D
Снова утро прожектором бьет из окна,
Em C
И молчит телефон: отключен...
Em
Снова солнца на небе нет,
G D
Снова бой, каждый сам за себя,
Em
И, мне кажется, солнце -
G
Не больше, чем сон.

Am Em
На экране окна
D Am
Сказка с несчастливым концом.
Em G
Странная сказка...

И стучит пулеметом дождь,
И по улицам осень идет,
И стена из кирпичей-облаков крепка.
А деревья заболели чумой,
Заболели еще весной,
И слетят с ладони листья,
Махавшие нам свысока.

Там за окном
Сказка с несчастливым концом.
Странная сказка...

А потом придет она.
Собирайся, - скажет, - пошли,
Отдай земле тело...
Ну, а тело не допело чуть-чуть,
Ну, а телу недодали любви.
Странное дело...

Там за окном
Сказка с несчастливым концом.
Странная сказка...

1-|----------------------------------------
2-|----------------------------------------
3-|----------------------------------------
4-|-2---------0---------2------0-----------
5-|----2---2---------------2---------------
6-|------3------3-2-0--------3-------------
скачать dle 10.3фильмы бесплатно

 

 

 

Сайт Виктора Цоя

Этот сайт посвящен Виктору Цою. Здесь вы найдете фотографии Виктора Цоя, все известные видеозапись его выступлений, а так же подробную биогравию Виктора Цоя. Сайт Виктора Цоя.

 

Скачать песни группы "Кино", В. Цоя

На нашем сайте вы можете бесплатно скачать песни В. Цоя. Мы постарались собрать максимально полное количество песен группы "Кино". Здесь вы можете скачать песни группы "Кино" бесплатно. Скачать песни группы "Кино", В. Цоя.

 

Фото Виктора Цоя

На сайте вы сможете найти множество фото Виктора Цоя. У нас собрана самая большая цоллекция фото Виктора Цоя. Посмотреть фото Виктора Цоя.

 

 

 

Альбомы группы "Кино"

45 45 46 46 Начальник камчатки Начальник комчатки
Это не любовь Это не любовь Ночь Ночь Группа крови Группа крови
Последний герой Последний герой Звезда по имени солнце Звезда по имени солнце Черный альбом Черный альбом
Viktor-Tsoy.com
2008